Головна Популярне Увійти Зареєструватися Про проект Ми у Facebook - Розважальні - Музика - Про кіно - Ігри - Цікаве - Суспільство і політика - Подорожі - Технології - Влоги - Буктюб (про книги) - Хобі та робота - Спорт - Їжа

🇺🇦 Jerry Heil - #ОХРАНА_ОТМЄНА (на гітарі від MuseTANG) + текст, акорди, табулатура

Переглядів: 2 706
Опубліковано: 15 квіт. 2019 р.
Підписатися
Додаток в Google Play: https://play.google.com/store/apps/details?id=com.musetang.musetang
Telegram: https://t.me/MuseTANG
Instagram: https://www.instagram.com/musetang_guitar
Facebook: https://www.facebook.com/musetangguitar
Youtube: https://www.youtube.com/c/NazarCovers

Подякувати автору:
5351 2801 0117 3054

Jerry Heil - #ОХРАНА_ОТМЄНА

(капо на 3-му ладу)

Em [022000]
D [xx0232]
G [320033] або [355433]
Cmaj7 [332000] або [335453]

Em D
Усе життя, як касова стрічка
G Cmaj7
На ній так добре видно, що ти за чувак
Завжди шукаєш усюди знижку
А нова тачка майже як нова
Вчора в мені купу-купу вад шук-шукав
А сьогодні шоко-шоколад купу-купував
Триста гривень вчора поки спав, чеки взяла швидко
Ні тебе, ні плитки, обірвалась нитка

Приспів:
Охрана отмєна
Він вночі назвав мене Лєна, а я не Лєна
Я Яна, охрана
Виведіть, бо ляже, як встану
Якщо я встану
Ти ляжеш, ти ляжеш, ти ляжеш
Ляжеш, як я встану я
Ти ляжеш, ти ляжеш, ти ляжеш
Ляжеш, як я встану я

Усе життя як погана звичка
Пакет не треба, жуйку зможу донести
Мої мемаси кидав їй в лічку
І підло лайкаєш мої пости
Вчора в мені купу-купу вад шук-шукав
А сьогодні шоко-шоколад купу-купував
Триста гривень вчора поки спав, чеки взяла швидко
Ні тебе, ні плитки обірвалась нитка

1|---------------|--------2------|---------------|---------------
2|--------0------|------3-----3--|--------0------|--------0------
3|------0-----0--|----2----------|------0-----0--|------0-----0--
4|----2----------|--0------------|----0----------|----2----------
5|---------------|---------------|---------------|--3------------
6|--0------------|---------------|--3------------|---------------


1|---------------|--------2h3p2--------|---------------|---------------------
2|--------0------|------3-------3------|--------0------|--------0h1p0-----0--
3|------0-----0--|----2-----------2p0--|------0-----0--|------0-------0------
4|----2----------|--0------------------|----0----------|----2-----------2----
5|---------------|---------------------|---------------|--3------------------
6|--0------------|---------------------|--3------------|---------------------

#ОХРАНА_ОТМЄНА #JerryHeil #MuseTANG
розгорнути опис
згорнути опис

Можливо зацікавить